ARTIKEL HEADLINE :
Home » , » The Count Of Tuscany Tab dream thetre chord tab

The Count Of Tuscany Tab dream thetre chord tab

Penulis : aan martha on Selasa, 16 April 2013 | 06.35



-------------------------------------------------------------------------------
		       The Count of Tuscany - Dream Theater
-------------------------------------------------------------------------------

Tabbed by: Dan Wright
Email: muzikvlr1714@yahoo.com

Tuning: Standard (eBGDAE)

    1   +   2   +   3   +      1   +   2   +   3   +      1   +   2   +   3   +
e|--------------------------|--------------------------|--------------------------|
B|----------0---------------|----------0---------------|----------0---------------|
G|------------------3-------|------------------3-------|------------------3-------|
D|------4---------------4---|------4---------------4---|------4---------------4---|
A|--------------------------|--------------------------|--2-----------------------|
E|--4-----------------------|--4-----------------------|--------------------------|

    1   +   2   +   3   +      1   +   2   +   3   +      1   +   2   +   3   +
e|--------------------------|--------------------------|--------------------------|
B|----------0---------------|----------0---------------|----------0---------------|
G|------------------3-------|------------------3-------|------------------3-------|
D|------4---------------4---|------4---------------4---|------4---------------4---|
A|--2-----------------------|--------------------------|--------------------------|
E|--------------------------|--2-----------------------|--2-----------------------|

    1   +   2   +   3   +      1   +   2   +   3   +      1   +   2   +   3   +
e|--------------------------|--------------------------|--------------------------|
B|----------0---------------|----------0---------------|----------0---------------|
G|------------------3-------|------------------3-------|------------------3-------|
D|------4---------------4---|------4---------------4---|------4---------------4---|
A|--------------------------|--------------------------|--------------------------|
E|--0-----------------------|--0-----------------------|--4-----------------------|

    1   +   2   +   3   +      1   +   2   +   3   +      1   +   2   +   3   +
e|--------------------------|--------------------------|--------------0-----------|
B|----------0---------------|--------------------------|------------------0-------|
G|------------------3-------|----------6---------------|----------8-----------8---|
D|------4---------------4---|--------------------------|--------------------------|
A|--------------------------|------9-----------9-------|------9-------------------|
E|--4-----------------------|--6-------------------6---|--7-----------------------|

    1   +   2   +   3   +      1   +   2   +   3   +      1   +   2   +   3   +
e|--------------0-----------|--------------------------|--------------------------|
B|------------------0-------|----------0---------------|----------0-----------0---|
G|----------8-----------8---|-----------------3--------|--------------------------|
D|--------------------------|------4---------------4---|------4-----------4-------|
A|------9-------------------|--------------------------|--------------------------|
E|--7-----------------------|--0-----------------------|--0-----------2-----------|

Guitar 1:
    1   +   2   +   3   +      1   +   2   +   3   +      1   +   2   +   3   +
e|--------------------------|--------------------------|--------------------------|
B|----------0---------------|----------0-----------0---|----------0---------------|
G|------------------3-------|--------------------------|------------------3-------|
D|------4---------------4---|------4-----------4-------|------4---------------4---|
A|--------------------------|--------------------------|--------------------------|
E|--0-----------------------|--0-----------2-----------|--4-----------------------|
                                                                                  |
Guitar 2:                                                                         |
    1   +   2   +   3   +      1   +   2   +   3   +      1   +   2   +   3   +   |
e|--------------------------|--------------------------|--------------------------|
B|--------------------------|--------------------------|--------------------------|
G|--------------------------|--------------------------|--------------------------|
D|--------------------------|--------------------------|-/6-----------------------|
A|--------------------------|--------------------------|--------------------------|
E|--------------------------|--------------------------|--------------------------|

Guitar 1:
    1   +   2   +   3   +      1   +   2   +   3   +      1   +   2   +   3   +
e|--------------------------|--------------------------|--------------------------|
B|----------0---------------|----------0---------------|----------0---------------|
G|------------------3-------|------------------3-------|------------------3-------|
D|------4---------------4---|------4---------------4---|------4---------------4---|
A|--------------------------|--2-----------------------|--2-----------------------|
E|--4-----------------------|--------------------------|--------------------------|
                                                                                  |
Guitar 2:                                                                         |
    1   +   2   +   3   +      1   +   2   +   3   +      1   +   2   +   3   +   |
e|--------------------------|--------------------------|--------------------------|
B|--------------------------|--------------------------|--------------------------|
G|--------------------------|--------------------------|------------------4---6/8-|
D|(6)\0-----r------/6---8---|--9---8b9b8-----------4---|-------------/4-----------|
A|--------------------------|--------------------------|--------------------------|
E|--------------------------|--------------------------|--------------------------|

Guitar 1:
    1   +   2   +   3   +      1   +   2   +   3   +      1   +   2   +   3   +
e|--------------------------|--------------------------|--------------------------|
B|----------0---------------|----------0---------------|----------0---------------|
G|------------------3-------|------------------3-------|------------------3-------|
D|------4---------------4---|------4---------------4---|------4---------------4---|
A|--------------------------|--------------------------|--------------------------|
E|--2-----------------------|--2-----------------------|--0-----------------------|
                                                                                  |
Guitar 2:                                                                         |
    1   +   2   +   3   +      1   +   2   +   3   +      1   +   2   +   3   +   |
e|--------------21----------|(21)\0r-------------------|--------------------------|
B|--------------------------|--------------------------|--------------------------|
G|--6-----------------------|--------------3-h-4---4/6-|--4v-------------/9---8---|
D|--------------------------|---------/4---------------|--------------------------|
A|--------------------------|--------------------------|--------------------------|
E|--------------------------|--------------------------|--------------------------|

Guitar 1:
    1   +   2   +   3   +      1   +   2   +   3   +      1   +   2   +   3   +
e|--------------------------|--------------------------|--------------------------|
B|----------0---------------|----------0---------------|----------0---------------|
G|------------------3-------|------------------3-------|------------------3-------|
D|------4---------------4---|------4---------------4---|------4---------------4---|
A|--------------------------|--------------------------|--------------------------|
E|--0-----------------------|--4-----------------------|--4-----------------------|
                                                                                  |
Guitar 2:                                                                         |
    1   +   2   +   3   +      1   +   2   +   3   +      1   +   2   +   3   +   |
e|--------------------------|--------------------------|--------------------------|
B|--------------------------|--9v--------------(9)\4---|--4-h-5---4v--------------|
G|--9v------------------8911|--------------------------|----------------------4/--|
D|------------------8911----|--------------------------|--------------------------|
A|--------------------------|--------------------------|--------------------------|
E|--------------------------|--------------------------|--------------------------|

Guitar 1:
    1   +   2   +   3   +      1     +     2     +     3     +     1   +   2   +   3   +
e|--------------------------|--------------------0--------------|--------------------------|
B|--------------------------|--------------------------0--------|----------0---------------|
G|----------6---------------|--------------8-----------------8--|------------------3-------|
D|--------------------------|-----------------------------------|------4---------------4---|
A|------9-----------9-------|--------9--------------------------|--------------------------|
E|--6-------------------6---|--7--------------------------------|--0-----------------------|
                                                                                           |
Guitar 2:                                                                                  |
    1   +   2   +   3   +      1     +     2     +     3     +     1   +   2   +   3   +   |
e|----------------------1918|--16-------------------------------|--------------------------|
B|--19--17------------------|-----19-17-16-17161716-------------|--16b17-------16----------|
G|----------20--18--16------|----------------------18-1615------|--------------------------|
D|----16--16--16--16--16----|-----------------------------181614|--------------------------|
A|--------------------------|-----------------------------------|--------------------------|
E|--------------------------|-----------------------------------|--------------------------|

Guitar 1:
    1   +   2   +   3   +      1   +   2   +   3   +      1   +   2   +   3   +
e|--------------------------|--------------------------|--------------------------|
B|----------0-----------0---|----------0---------------|------------------0-------|
G|--------------------------|------------------3-------|------------3-------------|
D|------4-----------4-------|------4---------------4---|------4-------------------|
A|--------------------------|--------------------------|--------------------------|
E|--0-----------2-----------|--0-----------------------|--0-----------------------|
                                                                                  |
Guitar 2:                                                                         |
    1   +   2   +   3   +      1   +   2   +   3   +      1   +   2   +   3   +   |
e|--------------------------|--------------------------|--------------------------|
B|--------------------161719|--17v---------16v---------|-\12v---------\7v---------|
G|--16v---------151618------|--------------------------|--------------------------|
D|--------141618------------|--------------------------|--------------------------|
A|--------------------------|--------------------------|--------------------------|
E|--------------------------|--------------------------|--------------------------|

Guitar 1:
    1   +   2   +   3   +      1   +   2   +   3   +
e|--0-----------------------|--r-----------------------|
B|--------------------------|--------------------------|
G|--------------------------|--------------------------|
D|--------------------------|--------------------------|
A|--------------------------|--------------------------|
E|--------------------------|--------------------------|
                                                       |
Guitar 2:                                              |
    1   +   2   +   3   +      1   +   2   +   3   +   |
e|--------------------------|--------------------------|
B|--7h9v--------------------|(7)\----------------------|
G|--------------------------|--------------------------|
D|--------------------------|--------------------------|
A|--------------------------|--------------------------|
E|--------------------------|--------------------------|

    1   +   2   +   3   +   4   +   5   +   6   +
e|--------------12----------------------------------|
B|--------------12--------------------------0-------|
G|----------------------------------3---------------|
D|--------------------------4-----------------------|
A|--------------------------------------------------|
E|--0-----------------------------------------------|

    1   +   2   +   3   +   4   +   5   +   6   +   7   +   8   +   9   +
e|--------------5-----------------------------------------------------------|
B|--------------5---------------------------0-----------------------0-------|
G|----------------------------------3-----------------------3---------------|
D|--------------------------4-----------------------6-----------------------|
A|--------------------------------------------------------------------------|
E|--0-----------------------------------------------------------------------|

    1   +   2   +   3   +   4   +   5   +   6   +      1   +   2   +   3   +   4   +   5   +   6   +
e|--------------12----------------------------------|--------------5-----------------------------------|
B|--------------12--------------------------0-------|--------------5---------------------------0-------|
G|----------------------------------3---------------|----------------------------------3---------------|
D|--------------------------4-----------------------|--------------------------4-----------------------|
A|--------------------------------------------------|--------------------------------------------------|
E|--0-----------------------------------------------|--0-----------------------------------------------|

    1   +   2   +   3   +   4   +   5   +   6   +      1   +   2   +   3   +   4   +   5   +   6   +
e|----------------------------------0---------------|--------------12----------------------------------|
B|------------------0-----------------------0-------|--------------12--------------------------0-------|
G|----------3---------------------------------------|----------------------------------3---------------|
D|--6-----------------------8-----------------------|--------------------------4-----------------------|
A|--------------------------------------------------|--------------------------------------------------|
E|--------------------------------------------------|--0-----------------------------------------------|

    1   +   2   +   3   +   4   +   5   +   6   +   7   +   8   +   9   +
e|--------------5-----------------------------------------------------------|
B|--------------5---------------------------0-----------------------0-------|
G|----------------------------------3-----------------------3---------------|
D|--------------------------4-----------------------6-----------------------|
A|--------------------------------------------------------------------------|
E|--0-----------------------------------------------------------------------|

    1   +   2   +   3   +   4   +   5   +   6   +      1   +   2   +   3   +   4   +   5   +   6   +
e|--------------12----------------------------------|--------------5-----------------------------------|
B|--------------12--------------------------0-------|--------------5---------------------------0-------|
G|----------------------------------3---------------|----------------------------------3---------------|
D|--------------------------4-----------------------|--------------------------4-----------------------|
A|--------------------------------------------------|--------------------------------------------------|
E|--0-----------------------------------------------|--0-----------------------------------------------|

    1   +   2   +   3   +   4   +   5   +   6   +      1   +   2   +   3   +   4   +   5   +   6   +
e|----------------------------------0---------------|--------------------------------------------------|
B|------------------0-----------------------0-------|--------------0---------------------------0-------|
G|----------3---------------------------------------|----------------------------------3---------------|
D|--6-----------------------8-----------------------|--------------------------4-----------------------|
A|--------------------------------------------------|--------------------------------------------------|
E|--------------------------------------------------|--0-----------------------------------------------|

    1   +   2   +   3   +   4   +   5   +   6   +   7   +   8   +   9   +
e|--------------------------------------------------------------------------|
B|--------------0---------------------------0-----------------------0-------|
G|----------------------------------3-----------------------3---------------|
D|--------------------------4-----------------------6-----------------------|
A|--------------------------------------------------------------------------|
E|--0-----------------------------------------------------------------------|

    1   +   2   +   3   +   4   +   5   +   6   +      1   +   2   +   3   +   4   +   5   +   6   +
e|--------------------------------------------------|--------------------------------------------------|
B|--------------0---------------------------0-------|--------------0---------------------------0-------|
G|----------------------------------3---------------|----------------------------------3---------------|
D|--------------------------4-----------------------|--------------------------4-----------------------|
A|--------------------------------------------------|--------------------------------------------------|
E|--0-----------------------------------------------|--0-----------------------------------------------|

Guitar 1:
    1   +   2   +   3   +   4   +   5   +   6   +      1   +   2   +   3   +   4   +   5   +   6   +
e|----------------------------------0---------------|--------------------------------------------------|
B|------------------0-----------------------0-------|--------------0---------------------------0-------|
G|----------3---------------------------------------|----------------------------------3---------------|
D|--6-----------------------8-----------------------|--------------------------4-----------------------|
A|--------------------------------------------------|--------------------------------------------------|
E|--------------------------------------------------|--0-----------------------------------------------|
                                                                                                       |
Guitar 2:                                                                                              |
    1   +   2   +   3   +   4   +   5   +   6   +      1   +   2   +   3   +   4   +   5   +   6   +   |
e|--------------------------------------------------|--------------------------------------------------|
B|--------------------------------------------------|--------------9------/----11------11------11------|
G|--------------------------------------------------|--------------9------/----11------11------11------|
D|--------------------------------------------------|--------------9------/----11----------------------|
A|--------------------------------------------------|--------------------------------------------------|
E|--------------------------------------------------|--0-----------------------------------------------|

Guitar 1:
    1   +   2   +   3   +   4   +   5   +   6   +   7   +   8   +   9   +
e|--------------------------------------------------------------------------|
B|--------------0---------------------------0-----------------------0-------|
G|----------------------------------3-----------------------3---------------|
D|--------------------------4-----------------------6-----------------------|
A|--------------------------------------------------------------------------|
E|--0-----------------------------------------------------------------------|
                                                                            |
Guitar 2:                                                                   |
    1   +   2   +   3   +   4   +   5   +   6   +   7   +   8   +   9   +   |
e|--------------------------------------------------------------------------|
B|--------------9-----/-----11------11------11--\---9-------9---------------|
G|--------------9-----/-----11--------------11--\---9---------------9-------|
D|--------------9-----/-----11--------------11--\---9-----------------------|
A|--------------------------------------------------------------------------|
E|--0-----------------------------------------------------------------------|

Guitar 1:
    1   +   2   +   3   +   4   +   5   +   6   +      1   +   2   +   3   +   4   +   5   +   6   +
e|--------------------------------------------------|--------------------------------------------------|
B|--------------0---------------------------0-------|--------------0---------------------------0-------|
G|----------------------------------3---------------|----------------------------------3---------------|
D|--------------------------4-----------------------|--------------------------4-----------------------|
A|--------------------------------------------------|--------------------------------------------------|
E|--0-----------------------------------------------|--0-----------------------------------------------|
                                                                                                       |
Guitar 2:                                                                                              |
    1   +   2   +   3   +   4   +   5   +   6   +      1   +   2   +   3   +   4   +   5   +   6   +   |
e|--------------------------------------------------|--------------------------------------------------|
B|--------------9-----/-----11------11--------------|--------------9-----/-----11------11------11------|
G|--------------9-----/-----11--------------11------|--------------9-----/-----11--------------11------|
D|--------------9-----/-----11----------------------|--------------9-----/-----11--------------11------|
A|--------------------------------------------------|--------------------------------------------------|
E|--0-----------------------------------------------|--0-----------------------------------------------|

Guitar 1:
    1   +   2   +   3   +   4   +   5   +   6   +      1   +   2   +   3   +   4   +   5   +   6   +
e|----------------------------------0---------------|--------------------------------------------------|
B|------------------0-----------------------0-------|--------------0---------------------------0-------|
G|----------3---------------------------------------|----------------------------------3---------------|
D|--6-----------------------8-----------------------|--------------------------------------------------|
A|--------------------------------------------------|--------------------------------------------------|
E|--------------------------------------------------|--0-----------------------2-----------------------|
                                                                                                       |
Guitar 2:                                                                                              |
    1   +   2   +   3   +   4   +   5   +   6   +      1   +   2   +   3   +   4   +   5   +   6   +   |
e|--------------------------------------------------|--------------------------------------------------|
B|--9-------9-------9---/---11------12--------------|--------------------------------------------------|
G|--9---------------9---/---11--------------11------|--------------------------------------------------|
D|--9---------------9---/---11----------------------|--------------------------------------------------|
A|--------------------------------------------------|--------------------------------------------------|
E|--------------------------------------------------|--------------------------------------------------|

    1   +   2   +   3   +   4   +   5   +   6   +   7   +   8   +   9   +
e|--------------------------------------------------------------------------|
B|--------------0---------------------------0-----------------------0-------|
G|----------------------------------3-----------------------3---------------|
D|--------------------------------------------------------------------------|
A|--------------------------------------------------------------------------|
E|--0-----------------------2-----------------------4-----------------------|

    1   +   2   +   3   +   4   +   5   +   6   +      1   +   2   +   3   +   4   +   5   +   6   +
e|--------------------------------------------------|--------------------------------------------------|
B|--------------0---------------------------0-------|--------------0---------------------------0-------|
G|----------------------------------3---------------|----------------------------------3---------------|
D|--------------------------------------------------|--------------------------------------------------|
A|--------------------------------------------------|--------------------------------------------------|
E|--0-----------------------2-----------------------|--0-----------------------2-----------------------|

    1   +   2   +   3   +   4   +   5   +   6   +      1   +   2   +   3   +   4   +   5   +   6   +
e|--------------------------------------------------|--------------------------------------------------|
B|------------------0-----------------------0-------|--------------0---------------------------0-------|
G|----------3-----------------------3---------------|----------------------------------3---------------|
D|--------------------------------------------------|--------------------------------------------------|
A|--------------------------1-----------------------|--------------------------------------------------|
E|--4-----------------------------------------------|--0-----------------------2-----------------------|

    1   +   2   +   3   +   4   +   5   +   6   +   7   +   8   +   9   +
e|--------------------------------------------------------------------------|
B|--------------0---------------------------0-----------------------0-------|
G|----------------------------------3-----------------------3---------------|
D|--------------------------------------------------------------------------|
A|--------------------------------------------------------------------------|
E|--0-----------------------2-----------------------4-----------------------|

    1   +   2   +   3   +   4   +   5   +   6   +      1   +   2   +   3   +   4   +   5   +   6   +
e|--------------------------------------------------|--------------------------------------------------|
B|--------------0---------------------------0-------|--------------0---------------------------0-------|
G|----------------------------------3---------------|----------------------------------3---------------|
D|--------------------------------------------------|--------------------------------------------------|
A|--------------------------------------------------|--------------------------------------------------|
E|--0-----------------------2-----------------------|--0-----------------------2-----------------------|

    1   +   2   +   3   +   4   +   5   +   6   +      1   +   2   +   3   +   4   +   5   +   6   +
e|--------------------------------------------------|--------------------------------------------------|
B|------------------0-----------------------0-------|--------------------------------------------------|
G|----------3-----------------------3---------------|--------------------------------------------------|
D|--------------------------------------------------|----------------------------------4-------3-------|
A|--------------------------1-----------------------|--2-----------------------4-----------------------|
E|--4-----------------------------------------------|--------------2-----------------------------------|

    1   +   2   +   3   +   4   +   5   +   6   +   7   +   8   +   9   +
e|--------------------------------------------------------------------------|
B|--------------------------------------------------------------------------|
G|--------------------------------------------------------------------------|
D|--------------------------------------------------1-------3-------4-------|
A|--2-----------------------4-----------------------------------------------|
E|--------------------------------------------------------------------------|

    1   +   2   +   3   +   4   +   5   +   6   +
e|--------------------------------------------------|
B|--------------------------------------------------|
G|--------------------------------------------------|
D|----------------------------------4-------3-------|
A|--2-----------------------4-----------------------|
E|--------------2-----------------------------------|

    1   +   2   +   3   +   4   +   5   +   6   +   7   +   8   +   9   +
e|--------------------------------------------------------------------------|
B|--------------------------------------------------------------------------|
G|----------4-------3-------1-----------------------------------------------|
D|--------------------------------------------------1-----------------------|
A|--2-----------------------------------4-----------------------------------|
E|--------------------------------------------------------------------------|

    1   +   2   +   3   +   4   +   5   +   6   +
e|--r---7---6-4-----4---6---4-----------------------|
B|--------------7---------------5-------------------|
G|----------------------------------4---------------|
D|--------------------------------------------------|
A|--------------------------------------------------|
E|--------------------------------------------------|

    1   +   2   +   3   +   4   +   5   +   6   +   7   +   8   +   9   +
e|------7---6-4-----4---6---4---11--9-----7-6-7---9-----7-------------------|
B|--------------7-----------------------------------------------------------|
G|--------------------------------------------------------------------------|
D|--------------------------------------------------------------------------|
A|--------------------------------------------------------------------------|
E|--------------------------------------------------------------------------|

    1   +   2   +   3   +   4   +   5   +   6   +      1   +   2   +   3   +   4   +   5   +   6   +
e|--r---7---6-4-----4---6---4-----------------------|--r---7---6-4-----4---6---4---11--9---11--12------|
B|--------------7---------------5-------------------|--------------7-----------------------------------|
G|----------------------------------4---------------|--------------------------------------------------|
D|--------------------------------------------------|--------------------------------------------------|
A|--------------------------------------------------|--------------------------------------------------|
E|--------------------------------------------------|--------------------------------------------------|

    1   +   2   +   3   +   4   +   5   +   6   +      1   +   2   +   3   +   4   +   5   +   6   +
e|-111214-------------------------------------------|--------------------------------------------------|
B|------12------11------11--13----------------------|--------------------------------------------------|
G|----------------------------------11--------------|--------------------------------------------------|
D|--------------------------------------------------|------------------------------------------131413--|
A|--------------------------------------------------|-----------13----------13-14-16-14-13-1416------13|
E|--------------------------------------------------|--12-14-16----16-14-16----------------------------|

    1   +   2   +   3   +   4   +   5   +   6   +   7   +   8   +   9   +
e|--------------------------------------------------------------------------|
B|--------------------------------------------------------------------------|
G|---------13----------13-15--16--15--13----------------20--18--16----------|
D|--1314-16--16-14-16-------------------16--14----13--------------20--18--16|
A|--------------------------------------------------------------------------|
E|--------------------------------------------------------------------------|

    1   +   2   +   3   +   4   +   5   +   6   +      1   +   2   +   3   +   4   +   5   +   6   +
e|--------------------------------------------------|---------16-------16-18---19--18--16--------------|
B|------------------------------------------161716--|--1617-19--19-1719--------------------19--17--16--|
G|-----------15----------15-16-18-161516-18-------18|--------------------------------------------------|
D|--14-16-18----18-16-18----------------------------|--------------------------------------------------|
A|--------------------------------------------------|--------------------------------------------------|
E|--------------------------------------------------|--------------------------------------------------|

    1   +   2   +   3   +   4   +   5   +   6   +      1   +   2   +   3   +   4   +   5   +   6   +
e|--23--21--19--------------------------------------|--------------------------------------------------|
B|--------------23--21--19--------------------------|------------------0-------0-----------------------|
G|--------------------------21--20--18--------------|----------------------------------3---------------|
D|--------------------------------------21--20--16--|----------4-------------------------------4-------|
A|--------------------------------------------------|--------------------------------------------------|
E|--------------------------------------------------|--4-----------------------------------------------|

    1   +   2   +   3   +   4   +   5   +   6   +      1   +   2   +   3   +   4   +   5   +   6   +
e|--------------------------------------------------|--------------------------------------------------|
B|------------------0-------0-----------------------|------------------0-------0-----------------------|
G|----------------------------------3---------------|----------------------------------3---------------|
D|----------4-------------------------------4-------|----------4-------------------------------4-------|
A|--------------------------------------------------|--2-----------------------------------------------|
E|--4-----------------------------------------------|--------------------------------------------------|

    1   +   2   +   3   +   4   +   5   +   6   +      1   +   2   +   3   +   4   +   5   +   6   +
e|--------------------------------------------------|--------------------------------------------------|
B|------------------0-------0-----------------------|------------------0-------0-----------------------|
G|----------------------------------3---------------|----------------------------------3---------------|
D|----------4-------------------------------4-------|----------4-------------------------------4-------|
A|--2-----------------------------------------------|--------------------------------------------------|
E|--------------------------------------------------|--2-----------------------------------------------|

    1   +   2   +   3   +   4   +   5   +   6   +      1   +   2   +   3   +   4   +   5   +   6   +
e|--------------------------------------------------|--------------------------------------------------|
B|------------------0-------0-----------------------|------------------0-------0-----------------------|
G|----------------------------------3---------------|----------------------------------3---------------|
D|----------4-------------------------------4-------|----------4-------------------------------4-------|
A|--------------------------------------------------|--------------------------------------------------|
E|--2-----------------------------------------------|--0-----------------------------------------------|

    1   +   2   +   3   +   4   +   5   +   6   +      1   +   2   +   3   +   4   +   5   +   6   +
e|--------------------------------------------------|--------------------------------------------------|
B|------------------0-------0-----------------------|------------------0-------0-----------------------|
G|----------------------------------3---------------|----------------------------------3---------------|
D|----------4-------------------------------4-------|----------4-------------------------------4-------|
A|--------------------------------------------------|--------------------------------------------------|
E|--0-----------------------------------------------|--4-----------------------------------------------|

    1   +   2   +   3   +   4   +   5   +   6   +      1   +   2   +   3   +   4   +   5   +   6   +
e|--------------------------------------------------|--------------------------------------------------|
B|------------------0-------0-----------------------|--------------------------------------------------|
G|----------------------------------3---------------|------------------6-------6-----------------------|
D|----------4-------------------------------4-------|--------------------------------------------------|
A|--------------------------------------------------|----------9-----------------------9---------------|
E|--4-----------------------------------------------|--6---------------------------------------6-------|

    1   +   2   +   3   +   4   +   5   +   6   +      1   +   2   +   3   +   4   +   5   +   6   +
e|--------------------------0-----------------------|--------------------------------------------------|
B|----------------------------------0---------------|------------------0-------0-----------------------|
G|------------------8-----------------------8-------|----------------------------------3---------------|
D|--------------------------------------------------|----------4-------------------------------4-------|
A|----------9---------------------------------------|--------------------------------------------------|
E|--7-----------------------------------------------|--0-----------------------------------------------|

    1   +   2   +   3   +   4   +   5   +   6   +      1   +   2   +   3   +   4   +   5   +   6   +
e|-------------------------------------------------|---------------------------------------------------|
B|------------------0-----------------------0------|-------------------0-------0-----------------------|
G|-------------------------------------------------|-----------------------------------3---------------|
D|----------4-----------------------4--------------|-----------4-------------------------------4-------|
A|-------------------------------------------------|---------------------------------------------------|
E|--0-----------------------2----------------------|--0------------------------------------------------|

    1   +   2   +   3   +   4   +   5   +   6   +      1   +   2   +   3   +   4   +   5   +   6   +
e|--------------------------------------------------|--7-----------9-----------10----------9-----------|
B|------------------0-----------------------0-------|------8-----------8-----------8-----------8-------|
G|--------------------------------------------------|----------7-----------7-----------7-----------7---|
D|----------4-----------------------4---------------|--------------------------------------------------|
A|--------------------------------------------------|--------------------------------------------------|
E|--0-----------------------2-----------------------|--------------------------------------------------|

    1   +   2   +   3   +   4   +   5   +   6   +      1   +   2   +   3   +   4   +   5   +   6   +
e|--7-------9-------10------12------10------9-------|--7-----------9-----------10----------9-----------|
B|------8-------8-------8-------10------10------10--|------8-----------8-----------8-----------8-------|
G|--------------------------------------------------|----------7-----------7-----------7-----------7---|
D|--------------------------------------------------|--------------------------------------------------|
A|--------------------------------------------------|--------------------------------------------------|
E|--------------------------------------------------|--------------------------------------------------|

    1   +   2   +   3   +   4   +   5   +   6   +      1   +   2   +   3   +   4   +   5   +   6   +
e|--7-------9---10------14--12------10------9-------|--10----------12----------13----------12----------|
B|------8-----------8-----------10------10------10--|------11----------11----------11----------11------|
G|--------------------------------------------------|----------10----------10----------10----------10--|
D|--------------------------------------------------|--------------------------------------------------|
A|--------------------------------------------------|--------------------------------------------------|
E|--------------------------------------------------|--------------------------------------------------|

    1   +   2   +   3   +   4   +   5   +   6   +      1   +   2   +   3   +   4   +   5   +   6   +
e|--10------12------13------15------13------12------|--10----------12----------13----------12----------|
B|------11------11------11------13------13------13--|------11----------11----------11----------11------|
G|--------------------------------------------------|----------10----------10----------10----------10--|
D|--------------------------------------------------|--------------------------------------------------|
A|--------------------------------------------------|--------------------------------------------------|
E|--------------------------------------------------|--------------------------------------------------|

    1   +   2   +   3   +   4   +   5   +   6   +      1   +   2   +   3   +   4   +   5   +   6   +
e|--10------15--17------18--20------18--17--15------|--------------------------------------------------|
B|------11------------------------------------------|--18--16--15--------------------------------------|
G|------------------15----------17--------------17--|--------------------------------------------------|
D|--------------------------------------------------|--------------15--13--12--15--13--12--------------|
A|--------------------------------------------------|--------------------------------------------------|
E|--------------------------------------------------|--------------------------------------13--11--10--|

    1   +   2   +   3   +   4      1   +   2   +   3   +   4   +   5   +
e|------------------------------|------------------------------------------|
B|------------------------------|------------------------------------------|
G|------------------------------|------------------------------------------|
D|--129-------------------------|--5-------r---5-------5-------5-------r---|
A|------11101113108-------------|--3-------r---3-------3-------3-------r---|
E|-----------------109-101210873|------------------------------------------|

    1   +   2   +   3   +   4   +      1   +   2   +   3   +   4   +   5   +
e|----------------------------------|------------------------------------------|
B|----------------------------------|------------------------------------------|
G|----------------------------------|------------------------------------------|
D|--5-------r---5-------5-------r---|--5-------r---5-------5-------5-------r---|
A|--3-------r---3-------3-------r---|--3-------r---3-------3-------3-------r---|
E|----------------------------------|------------------------------------------|

    1   +   2   +   3   +   4   +      1   +   2   +   3   +   4   +   5   +
e|----------------------------------|------------------------------------------|
B|----------------------------------|------------------------------------------|
G|----------------------------------|------------------------------------------|
D|--5-------r---5-------5-------r---|--5-------r---5-------5-------5--------r--|
A|--3-------r---3-------3-------r---|--3-------r---3-------3-------3--------r--|
E|----------------------------------|------------------------------------------|

    1   +   2   +   3   +   4   +      1   +   2   +   3   +   4   +   5   +
e|----------------------------------|------------------------------------------|
B|----------------------------------|------------------------------------------|
G|----------------------------------|------------------------------------------|
D|--5-------r---5-------5-------r---|--5-------r---5-------5-------5-------r---|
A|--3-------r---3-------3-------r---|--3-------r---3-------3-------3-------r---|
E|----------------------------------|------------------------------------------|

    1   +   2   +   3   +   4   +      1   +   2   +   3   +   4   +   5   +
e|----------------------------------|------------------------------------------|
B|----------------------------------|------------------------------------------|
G|----------------------------------|------------------------------------------|
D|--5-------r---5-------5-------r---|--5-----------5-------5-------5-----------|
A|--3-------r---3-------3-------r---|--3---3---3---3---3---3---3---3---3---3---|
E|----------------------------------|------------------------------------------|

    1   +   2   +   3   +   4   +      1   +   2   +   3   +   4   +   5   +
e|----------------------------------|------------------------------------------|
B|----------------------------------|------------------------------------------|
G|----------------------------------|------------------------------------------|
D|--5-----------5-------5-----------|--5-----------5-------5-------5-----------|
A|--3---3---3---3---3---3---3---3---|--3---3---3---3---3---3---3---3---3---3---|
E|----------------------------------|------------------------------------------|

    1   +   2   +   3   +   4   +      1   +   2   +   3   +   4   +   5   +
e|----------------------------------|------------------------------------------|
B|----------------------------------|------------------------------------------|
G|----------------------------------|------------------------------------------|
D|--5-----------5-------5-----------|--5-----------5-------5-------5-----------|
A|--3---3---3---3---3---3---3---3---|--3---3---3---3---3---3---3---3---3---3---|
E|----------------------------------|------------------------------------------|

    1   +   2   +   3   +   4   +      1   +   2   +   3   +   4   +   5   +
e|----------------------------------|------------------------------------------|
B|----------------------------------|------------------------------------------|
G|----------------------------------|------------------------------------------|
D|--5-----------5-------5-----------|--5-----------5-------5-------5-----------|
A|--3---3---3---3---3---3---3---3---|--3---3---3---3---3---3---3---3---3---3---|
E|----------------------------------|------------------------------------------|

    1   +   2   +   3   +   4   +      1   +   2   +   3   +   4   +   5   +
e|----------------------------------|------------------------------------------|
B|----------------------------------|------------------------------------------|
G|----------------------------------|------------------------------------------|
D|--5-----------5-------5-----------|--5-----------5-------5-------5-----------|
A|--3---3---3---3---3---3---3---3---|--3---3---3---3---3---3---3---3---3---3---|
E|----------------------------------|------------------------------------------|

    1   +   2   +   3   +   4   +      1   +   2   +   3   +   4   +   5   +
e|----------------------------------|------------------------------------------|
B|----------------------------------|------------------------------------------|
G|----------------------------------|--------------------------4---7---5-------|
D|--5-----------5-------5-----------|----------5---4---7---6---------------5---|
A|--3---3---3---3---3---3---3---3---|--3---6-----------------------------------|
E|----------------------------------|------------------------------------------|
 
    1   +   2   +   3   +   4   +      1   +   2   +   3   +   4   +   5   +
e|----------------------------------|------------------------------------------|
B|----------------------------------|------------------------------------------|
G|----------------------------------|--------------------------4---7---5-------|
D|--8---7---4---6---3---5-----------|----------5---4---7---6---------------5---|
A|--------------------------6---5---|--3---6-----------------------------------|
E|----------------------------------|------------------------------------------|

    1   +   2   +   3   +   4   +      1   +   2   +   3   +   4   +   5   +
e|----------------------------------|------------------------------------------|
B|----------------------------------|------------------------------------------|
G|----------------------------------|--------------------------4---7---5-------|
D|--8---7---4---6---3---5-----------|----------5---4---7---6---------------5---|
A|--------------------------6---5---|--3---6-----------------------------------|
E|----------------------------------|------------------------------------------|

    1   +   2   +   3   +   4   +      1   +   2   +   3   +   4   +   5   +
e|----------------------------------|------------------------------------------|
B|----------------------------------|------------------------------------------|
G|----------------------------------|--------------------------4---7---5-------|
D|--8---7---4---6---3---5-----------|----------5---4---7---6---------------5---|
A|--------------------------6---5---|--3---6-----------------------------------|
E|----------------------------------|------------------------------------------|


    1   +   2   +   3   +   4   +      1   +   2   +   3   +
e|----------------------------------|--------------------------|
B|----------------------------------|--------------------------|
G|----------------------------------|--------------------------|
D|--8---7---4---6---3---5-----------|--------------------------|
A|--------------------------6---5---|--3-------r---------------|
E|----------------------------------|--------------------------|

    1   +   2   +   3   +   4   +   5   +      1   +   2   +   3   +   4   +
e|------------------------------------------|----------------------------------|
B|------------------------------------------|----------------------------------|
G|------------------------------------------|----------------------------------|
D|--9-----------9-------9-------9-----------|--9-----------9-------9-----------|
A|--7-----------7-------7-------7-----------|--7-----------7-------7-----------|
E|------0-0-0-------0-------0-------0-0-0---|------0---0-------0-------0-0-0---|

    1   +   2   +   3   +   4   +   5   +      1   +   2   +   3   +   4   +
e|------------------------------------------|----------------------------------|
B|------------------------------------------|----------------------------------|
G|------------------------------------------|----------------------------------|
D|--10----------10------10------10----------|--10----------10------10----------|
A|--7-----------7-------7-------7-----------|--7-----------7-------7-----------|
E|------0---0-------0-------0-------0-0-0---|------0---0-------0-------0-0-0---|

    1   +   2   +   3   +   4   +   5   +      1   +   2   +   3   +   4   +
e|------------------------------------------|----------------------------------|
B|------------------------------------------|----------------------------------|
G|------------------------------------------|----------------------------------|
D|--6-----------6-------6-------6-----------|--6-----------6-------6-----------|
A|--7-----------7-------7-------7-----------|--7-----------7-------7-----------|
E|------0---0-------0-------0-------0-0-0---|------0---0-------0-------0-0-0---|

    1   +   2   +   3   +   4   +      1   +   2   +   3   +   4   +
e|----------------------------------|----------------------------------|
B|----------------------------------|----------------------------------|
G|----------------------------------|----------------------------------|
D|--8-----------8-------8-----------|--7-----------7-------7-----------|
A|--7-----------7-------7-----------|--7-----------7-------7-----------|
E|------0---0-------0-------0-0-0---|------0---0-------0-------0-0-0---|

    1   +   2   +   3   +   4   +   5   +      1   +   2   +   3   +   4   +
e|------------------------------------------|----------------------------------|
B|------------------------------------------|----------------------------------|
G|------------------------------------------|----------------------------------|
D|--9-----------9-------9-------9-----------|--9-----------9-------9-----------|
A|--7-----------7-------7-------7-----------|--7-----------7-------7-----------|
E|------0---0-------0-------0-------0-0-0---|------0---0-------0-------0-0-0---|

    1   +   2   +   3   +   4   +   5   +      1   +   2   +   3   +   4   +
e|------------------------------------------|----------------------------------|
B|------------------------------------------|----------------------------------|
G|------------------------------------------|----------------------------------|
D|--12----------12------12------12----------|--12----------12------12----------|
A|--7-----------7-------7-------7-----------|--7-----------7-------7-----------|
E|------0---0-------0-------0--------0-0-0--|------0---0-------0-------0-0-0---|

    1   +   2   +   3   +   4   +   5   +      1   +   2   +   3   +   4   +
e|------------------------------------------|----------------------------------|
B|------------------------------------------|----------------------------------|
G|------------------------------------------|----------------------------------|
D|--11----------11------11------11----------|--10----------10------10----------|
A|--7-----------7-------7-------7-----------|--7-----------7-------7-----------|
E|------0---0-------0-------0-------0-0-0---|------0---0-------0-------0-0-0---|

    1   +   2   +   3   +   4   +      1   +   2   +   3   +   4   +
e|----------------------------------|----------------------------------|
B|----------------------------------|----------------------------------|
G|----------------------------------|----------------------------------|
D|--10----------10------10----------|--4---------------3---------------|
A|--8-----------8-------8-----------|--2---------------1-------4---5---|
E|------0---0-------0-------0-0-0---|------0-0-0---0-------0---2---3---|

    1   +   2   +   3   +   4   +      1   +   2   +   3   +   4   +
e|----------------------------------|----------------------------------|
B|----------------------------------|----------------------------------|
G|----------------------------------|----------------------------------|
D|----------------------------------|----------------------------------|
A|--7---------------4-------4---5---|--2-----------2-----------9---10--|
E|--5---0-0-0---0---2---0---2---3---|--0---0-0-0---0---0-0-0---7---8---|

    1   +   2   +   3   +   4   +   5   +      1   +   2   +   3   +   4   +
e|------------------------------------------|----------------------------------|
B|------------------------------------------|----------------------------------|
G|------------------------------------------|----------------------------------|
D|--9-----------9-------9-------9-----------|--9-----------9-------9-----------|
A|--7-----------7-------7-------7-----------|--7-----------7-------7-----------|
E|------0-0-0-------0-------0-------0-0-0---|------0---0-------0-------0-0-0---|

    1   +   2   +   3   +   4   +   5   +      1   +   2   +   3   +   4   +
e|------------------------------------------|----------------------------------|
B|------------------------------------------|----------------------------------|
G|------------------------------------------|----------------------------------|
D|--10----------10------10------10----------|--10----------10------10----------|
A|--7-----------7-------7-------7-----------|--7-----------7-------7-----------|
E|------0---0-------0-------0-------0-0-0---|------0---0-------0-------0-0-0---|

    1   +   2   +   3   +   4   +   5   +      1   +   2   +   3   +   4   +
e|------------------------------------------|----------------------------------|
B|------------------------------------------|----------------------------------|
G|------------------------------------------|----------------------------------|
D|--6-----------6-------6-------6-----------|--6-----------6-------6-----------|
A|--7-----------7-------7-------7-----------|--7-----------7-------7-----------|
E|------0---0-------0-------0-------0-0-0---|------0---0-------0-------0-0-0---|

    1   +   2   +   3   +   4   +      1   +   2   +   3   +   4   +
e|----------------------------------|----------------------------------|
B|----------------------------------|----------------------------------|
G|----------------------------------|----------------------------------|
D|--8-----------8-------8-----------|--7-----------7-------7-----------|
A|--7-----------7-------7-----------|--7-----------7-------7-----------|
E|------0---0-------0-------0-0-0---|------0---0-------0-------0-0-0---|

    1   +   2   +   3   +   4   +   5   +      1   +   2   +   3   +   4   +
e|------------------------------------------|----------------------------------|
B|------------------------------------------|----------------------------------|
G|------------------------------------------|----------------------------------|
D|--9-----------9-------9-------9-----------|--9-----------9-------9-----------|
A|--7-----------7-------7-------7-----------|--7-----------7-------7-----------|
E|------0---0-------0-------0-------0-0-0---|------0---0-------0-------0-0-0---|
 
    1   +   2   +   3   +   4   +   5   +      1   +   2   +   3   +   4   +
e|------------------------------------------|----------------------------------|
B|------------------------------------------|----------------------------------|
G|------------------------------------------|----------------------------------|
D|--12----------12------12------12----------|--12----------12------12----------|
A|--7-----------7-------7-------7-----------|--7-----------7-------7-----------|
E|------0---0-------0-------0-------0-0-0---|------0---0-------0-------0-0-0---|

    1   +   2   +   3   +   4   +   5   +      1   +   2   +   3   +   4   +
e|------------------------------------------|----------------------------------|
B|------------------------------------------|----------------------------------|
G|------------------------------------------|----------------------------------|
D|--11----------11------11------11----------|--11----------11------11----------|
A|--7-----------7-------7-------7-----------|--7-----------7-------7-----------|
E|------0---0-------0-------0-------0-0-0---|------0---0-------0-------0-0-0---|

    1   +   2   +   3   +   4   +      1   +   2   +   3   +   4   +
e|----------------------------------|----------------------------------|
B|----------------------------------|----------------------------------|
G|----------------------------------|----------------------------------|
D|--10----------10------10----------|--10----------10------10----------|
A|--7-----------7-------7-----------|--8-----------8-------8-----------|
E|------0---0-------0-------0-0-0---|------0---0-------0-------0-0-0---|

    1   +   2   +   3   +   4   +      1   +   2   +   3   +   4   +
e|----------------------------------|----------------------------------|
B|----------------------------------|----------------------------------|
G|----------------------------------|----------------------------------|
D|--------------4-------------------|----------------------------------|
A|--------------2-------------------|----------------------------------|
E|--0---2---3---------------3---2---|--0-0-0---0---0---0-0-0---0-0-0---|

    1   +   2   +   3   +   4   +      1   +   2   +   3   +   4   +
e|----------------------------------|----------------------------------|
B|----------------------------------|----------------------------------|
G|----------------------------------|----------------------------------|
D|--------------5-------------------|----------------------------------|
A|--------------3-------------------|----------------------------------|
E|--0---2---3---------------3---2---|--0-0-0---0---0---0-0-0---0-0-0---|

    1   +   2   +   3   +   4   +      1   +   2   +   3   +   4   +
e|----------------------------------|----------------------------------|
B|----------------------------------|----------------------------------|
G|----------------------------------|----------------------------------|
D|--------------9-------------------|----------------------------------|
A|--------------7-------------------|----------------------------------|
E|--0---2---3---------------3---2---|--0-0-0---0---0---0-0-0---0-0-0---|

    1   +   2   +   3   +   4   +      1   +   2   +   3   +   4   +
e|----------------------------------|----------------------------------|
B|----------------------------------|----------------------------------|
G|----------------------------------|----------------------------------|
D|--------------3-------------------|--------------2-------------------|
A|--------------1-------------------|--------------0-------------------|
E|--0---2---3---------------3---2---|--0---2---3---------------3---2---|

    1   +   2   +   3   +   4   +      1   +   2   +   3   +   4   +
e|----------------------------------|----------------------------------|
B|----------------------------------|----------------------------------|
G|----------------------------------|----------------------------------|
D|--------------4-------------------|----------------------------------|
A|--------------2-------------------|----------------------------------|
E|--0---2---3---------------3---2---|--0-0-0---0---0---0-0-0---0-0-0---|

    1   +   2   +   3   +   4   +      1   +   2   +   3   +   4   +
e|----------------------------------|----------------------------------|
B|----------------------------------|----------------------------------|
G|----------------------------------|----------------------------------|
D|--------------7-------------------|----------------------------------|
A|--------------5-------------------|----------------------------------|
E|--0---2---3---------------3---2---|--0-0-0---0---0---0-0-0---0-0-0---|

    1   +   2   +   3   +   4   +      1   +   2   +   3   +   4   +
e|----------------------------------|----------------------------------|
B|----------------------------------|----------------------------------|
G|----------------------------------|----------------------------------|
D|--------------7-------------------|----------------------------------|
A|--------------4-------------------|----------------------------------|
E|--0---2---3---------------3---2---|--0-0-0---0---0---0-0-0---0-0-0---|

    1   +   2   +   3   +   4   +      1   +   2   +   3   +   4   +
e|----------------------------------|----------------------------------|
B|----------------------------------|----------------------------------|
G|----------------------------------|----------------------------------|
D|--------------5-------------------|--------------3-------------------|
A|--------------3-------------------|--------------1-------------------|
E|--0---2---3---------------3---2---|--0---2---3---------------3---2---|

    1   +   2   +   3   +   4   +      1   +   2   +   3   +   4   +
e|----------------------------------|----------------------------------|
B|----------------------------------|----------------------------------|
G|----------------------------------|----------------------------------|
D|--4---------------3---------------|----------------------------------|
A|--2---------------1-------4---5---|--7---------------4-------4---5---|
E|------0-0-0---0-------0---2---3---|--5---0-0-0---0---2---0---2---3---|

    1   +   2   +   3   +   4   +      1   +   2   +   3   +   4   +   5   +
e|----------------------------------|------------------------------------------|
B|----------------------------------|------------------------------------------|
G|----------------------------------|------------------------------------------|
D|----------------------------------|--9-----------9-------9-------9-----------|
A|--2-----------2-----------9---10--|--8-----------7-------7-------7-----------|
E|--0---0-0-0---0---0-0-0---7---8---|------0-0-0-------0-------0-------0-0-0---|

    1   +   2   +   3   +   4   +      1   +   2   +   3   +   4   +   5   +
e|----------------------------------|------------------------------------------|
B|----------------------------------|------------------------------------------|
G|----------------------------------|-----------------------------------------
Share this article :

Posting Komentar

 
Design Template by MUSIC YES | Support by | Powered by MUSIC YES